Amenoum /authors/Amenoum.html#credits music 0

m u s i c

intro I sometimes like to compose music and lyrics, so here it is.
Of course, you may use anything posted here in your own work, create your art from this, whatever. It would only be fair to give something back if you see any value in it or if you get something for it. in sono Music composed over the years. Played on acoustic guitar with no usage of guitar picks and amplifiers, recorded and edited using Audacium. All of these are basically demos and the playing is not perfect but my motivation to record this in a better way is zero. My wish is for someone else to record this professionally. Most of these are available in a playlist "Ending Credits" on Youtube. Requiem for midnight (Amenoum)
Date of recording: 2021.08.18
Something I composed long time ago. Probably would be better on a piano, but I don't have one. Perhaps not the best sound, recording and playing, but not bad for my non-professional equipment, playing and editing. I find it very satisfying to set this on repeat and listen while working - I guess it's probably the best to create your own music for such purpose.
Requiem for stars (Amenoum)
Date of recording: 2021.08.22
Resurrection of truth (Amenoum)
Date of recording: 2021.08.31
Sometimes I think the intro in this one should be slower, sometimes not...
Resurrection of truth [demo] (Amenoum)
Date of recording: 2021.08.29
Demo recording of the song above, which is also a demo.
Resurrection of truth [demo 2] (Amenoum)
Date of recording: 2021.08.29
The same demo as above, with slowed down intro.
In memory of youth (Amenoum)
Date of recording: 2021.08.29
Dedicated to teen days, friends in high-school and AC/DC who made these bearable (days of course).
The misery of Baal [demo] (Amenoum)
Date of recording: 2021.08.29
I can imagine this with drums and perhaps more consistency...
Christmas War [demo] (Amenoum)
Date of recording: 2021.11.18
Dreaming of life [demo] (Amenoum)
Date of recording: 2021.11.18
Obsolete Humanity [demo] (Amenoum)
Date of recording: 2021.11.25
Psychotic order [demo] (Amenoum)
Date of recording: 2021.11.18
Sonata in G-maximum [demo] (Amenoum)
Date of recording: 2021.09.20
in scripto Here are some lyrics, cryptic and other writings done over the years. All in all, it's all just a play of words and structures, sometimes with a deeper meaning, sometimes maybe not.
Droga (1998), Amenoum
    x -chopping
    \ -slide down

 _____________________4x_____________________
/     3x(1st)           \                    \
e----------------|-------|--------------------|
B----------------|-------|--------------------|
G----------------|-------|--------------------|
D--2-2-4-2-2-2-5-|-2-7-5-|-2-2-4-2-2-2---2----|
A--0-0-0-0-3-0-3-|-0-5-3-|-0-0-0-0-3-0-x-0--5-|
E----------------|-------|-------------3----3-|

             4x                     4x             2x              2x
e---------------------------|-------------3-|---------------|-------------3-|
B---------------------------|-------------3-|-------------3-|-------------3-|
G---------------------------|-------------0-|-2-2-4-4-2-2-2-|-------------0-|
D-2-2-4-4-2-x-2-2-4-4-2-2---|-2-2-4-4-2-2-0-|-0-0-0-0-0-0-x-|-2-2-4-4-2-2-0-|
A-0-0-0-0-0-x-0-0-0-0-0-0-5-|-0-0-0-0-0-0-x-|-------------2-|-0-0-0-0-0-0-x-|
E-------------------------3-|-------------3-|---------------|-------------3-|

            4x                           6x
e------------------------|-------------------------------|
B--------------------3-3-|---------3-3-3-3-3-3-3-3-3-3-3-|
G---------1-1--1-1-x-2-0-|-2-2-4-4-0-0-0-0-0-2-2-2-2-0-0-|
D-2-2-4-4-2-2--2-2-x-0-0-|-0-0-0-0-0-0-0-0-0-x-x-x-x-x-x-|
A-0-0-0-0-2-2--2-2-x-x-x-|---------2-2-2-2-2-2-2-2-2-3-3-|
E--------------------2-3-|---------3-3-3-3-3-------------|

            3x
e-----------------2--|-----|
B-----------------3--|-----|
G-2-2-4-4-2-2-2-5-2--|-----|
D-0-0-0-0-2-2-2-5-0--|-5-5-|
A---------0-0-0-3----|-3-2-|
E--------------------|-----|

              2x                                 4x          2x
e-2-2---2-2---2-2-3-2-2-2-----|-2-2-3-2-2-|-2-2---2-2-------|-------|--------|
B-3-3---3-3---3-3-3-3-3-3-----|-3-3-3-3-3-|-3-3---3-3-------|-------|--------|
G-2-2-2-2-2-2-2-2-2-2-2-2-----|-2-2-2-2-2-|-2-2-2-2-2-2-----|-------|--------|
D-------------------------x-x-|-----------|-------------x-x-|-x-x-x-|--------|
A-------------------------3-2-|-----------|-------------3-2-|-2-3-2-|-x-x-x--|
E-----------------------------|-----------|-----------------|-------|-3-2-3--|


e-----------------|---------------|-------|------------------|
B-----------------|---------------|-------|------------------|
G---7--5----------|---------------|-------|------------------|
D-5-7--5-5-3--7-5-|-2-2-4-2-2-2-5-|-2-7-5-|-2-2-4-2-2-2---2--| 
A-5-5--3-5-3--7-5-|-0-0-0-0-3-0-3-|-0-5-3-|-0-0-0-0-3-0-x-0--|
E-3------3-1--5-3-|---------------|-------|-------------3----|

           - Place for the solo -

             4x                     4x             2x              2x
e---------------------------|-------------3-|---------------|-------------3-|
B---------------------------|-------------3-|-------------3-|-------------3-|
G---------------------------|-------------0-|-2-2-4-4-2-2-2-|-------------0-|
D-2-2-4-4-2-x-2-2-4-4-2-2---|-2-2-4-4-2-2-0-|-0-0-0-0-0-0-x-|-2-2-4-4-2-2-0-|
A-0-0-0-0-0-x-0-0-0-0-0-0-5-|-0-0-0-0-0-0-x-|-------------2-|-0-0-0-0-0-0-x-|
E-------------------------3-|-------------3-|---------------|-------------3-|

            4x                           6x
e------------------------|-------------------------------|
B--------------------3-3-|---------3-3-3-3-3-3-3-3-3-3-3-|
G---------1-1--1-1-x-2-0-|-2-2-4-4-0-0-0-0-0-2-2-2-2-0-0-|
D-2-2-4-4-2-2--2-2-x-0-0-|-0-0-0-0-0-0-0-0-0-x-x-x-x-x-x-|
A-0-0-0-0-2-2--2-2-x-x-x-|---------2-2-2-2-2-2-2-2-2-3-3-|
E--------------------2-3-|---------3-3-3-3-3-------------|

            3x
e-----------------2--|-----|
B-----------------3--|-----|
G-2-2-4-4-2-2-2-5-2--|-----|
D-0-0-0-0-2-2-2-5-0--|-5-5-|
A---------0-0-0-3----|-3-2-|
E--------------------|-----|

              2x                                 4x          2x
e-2-2---2-2---2-2-3-2-2-2-----|-2-2-3-2-2-|-2-2---2-2-------|-------|--------|
B-3-3---3-3---3-3-3-3-3-3-----|-3-3-3-3-3-|-3-3---3-3-------|-------|--------|
G-2-2-2-2-2-2-2-2-2-2-2-2-----|-2-2-2-2-2-|-2-2-2-2-2-2-----|-------|--------|
D-------------------------x-x-|-----------|-------------x-x-|-x-x-x-|--------|
A-------------------------3-2-|-----------|-------------3-2-|-2-3-2-|-x-x-x--|
E-----------------------------|-----------|-----------------|-------|-3-2-3--|


e-----------------|-----------|-
B-----------------|-----------|-
G---7--5----------|-----------|-
D-5-7--5-5-3--7-5-|-2-2-4-4-2-|-
A-5-5--3-5-3--7-5-|-0-0-0-0-0-|-
E-3------3-1--5-3-|-----------|-


1st verse:

(1) Ja nisam bio jedan od mnogih,
    bio sam drugaciji od svih.
(1) Ja nisam bio jedan od onih,
    bio sam bolji od njih.

(2) Misle da su na ovom svijetu sami,
(2) nemaju nista u toj prokletoj glavi.
(3) Bez zivota, tupi pogled u ocima,
(2) bez pravog cilja, lutaju nocima.

(4) Svi su oni isti, svi su oni psi,  
(4) leze na cesti, puse kerozin!         -2x
(5) Nemaju para da kupe drogu pravu,
(5) nemaju novca ni za obicnu travu!     -2x

(6) Volio bih biti netko drugi,
(6) Volio bih znati sto se nalazi,
(7) preko granice, daleko od stvarnosti.

2nd verse:

(2) Stajao sam na rubu, duboko u tami,
(2) pognute glave, buljeci u prazno.
(3) Bez ikakve nade, spasa na vidiku,
(2) Drzao sam bodez, ali bojao se kraja.

(4) Ti sad ne znas kamo, ti sad ne znas kud,
(4) Ti se malo gubis, il' se pravis lud!     -2x
(5) Vise ne znas zasto, kako i kada,
(5) Heroin je tvoja jedina nada!         -2x

(6) Volio bih biti netko drugi,
(6) Volio bih znati sto se nalazi,
(7) preko granice, daleko od stvarnosti.
The inner voices - instrumental (1998), Amenoum
Only part tabbed for now

~ -hand vibrato
p -pull off
h -hold
b -bend
\ -slide down
/ -slide up

             5x
e---------------------------|-------------------------------------|
B---------------------------|-------------------------------------|
G---------------------------|-------------------------------------|
D-----0--------7-------0----|-----0-----0-----0-------------------|
A---9---9-7------9~-9~---9--|---7-----5-----4---4~------------2\--|
E-7---------9b--------------|-5-----3-----2-------------0-3-0-----|

           8x
e----------------------|------------------------------------------|
B----------------------|------------------------------------------|
G-----0-----0-----0----|---------0-------0-------0-------0--------|
D---4-----3-----2---2--|-------2---2---2---2---2---2---2---2------|
A-5-----4-----3--------|-3-2-0-------0-------3-------3--------3-2-|
E----------------------|------------------------------------------|

            2x
e-------------------------|
B-------------------------|
G-----0---0-------0---0---|
D---2---2---2---2---2---2-|
A-0-----------3-----------|
E-------------------------|

           3x                        4x
e----------------------|-----|------------------|
B----------------------|-----|------------------|
G-----0-----0-----0----|-----|-----0-----2p-0---|
D---4-----3-----2---2--|-----|---2---2-3------2-|
A-5-----4-----3--------|-3-2-|-0----------------|
E----------------------|-----|------------------|

                  4x                               8x
e-------------------------------------|-----|---------------------|
B-------------------------------------|-----|---------------------|
G-----0-----0-2-------0-4-------0-2---|-----|-----0-----0-----0---|
D---2---2-3-----3\--5-----5/--3-----3-|-2---|---4-----3-----2---2-|
A-3-----------------------------------|---3-|-5-----4-----3-------|
E-------------------------------------|-----|---------------------|

                                     4x
e-------------------------|----------------------|-------|
B-------------------------|-----------2-----2----|-------|
G-----2-2-2-3h--2-2-2-3h--|-2-2-2-3h----3-----3--|-2-2-2-|
D-----3-3-2-3h--3-2-3-3h--|-3-3-2-3h------3------|-3-3-2-|
A-3-2-3-3-------3---3-----|-3-3------------------|-3-3---|
E-------------------------|----------------------|-------|

                    4x
e-----------------------------------------|-------------------------|
B-----2-----2-----2-------1-----1-----1---|-----2-----2-----2-------|
G-3h----3-----3-----3-2h----2-----2-----2-|-3h----3-----3-----3-2h--|
D-3h------3-----3-----3h------3-----3-----|-3h------3-----3-----3h--|
A-----------------------------------------|-------------------------|
E-----------------------------------------|-------------------------|

               8x /Needs to be changed! Listen the tape!
e-----------------------------|------------------------------|
B---1-----1-------1---2---3-1-|---1-----1--------------------|
G-2---2-----2---3---3---3-----|-----2-----2---3-2------------|
D-3-----3-----3---------------|-3-----3-----3-----3-2--------|
A-----------------------------|-----------------------3-2b\--|
E-----------------------------|------------------------------|

e-----------------------------------|
B-----------------------------------|
G-----0-----0-----0-----------------|
D---4-----3-----2---2---------------|
A-5-----4-----3--------3b-(2)-2p-0--|
E-----------------------------------|
Piece of time (2002), Amenoum
moments of time are passing by
faster every day, time's running away
one moment I'm child
the other one I say goodbye...

if only I could slow it down
if I could run before my time...
but I'm a man, not a god...

I can hear the time passing by
and as I sleep it steals my life,
my little piece of time...

*Chorus (2x)

 the time races with my mind
 and I can't win, I know
 I can't tow the line
 the time.. wins every round

I can't stop the clock
the seconds are getting away
another hour, another day
my life is fading away...

*Chorus (2x)

 the time races with my mind
 and I can't win, I know
 I can't tow the line
 the time.. wins every round (2x)

*Solo

I can hear the time passing by
and as I sleep, it steals my life,
my little piece of time...
Less than nothing (2005), Amenoum
why is it that
I can see thru you
why are you so pale
bright just as a day

why are all your words
all your lies
I wonder if there's something true
in your head
behind those lying eyes

no, there's nothin' real
nothing about you
can make me feel
anything

faking smiles
faking cries
you're everything
but less than nothing
makes me wonder how
whenever did you die
All ships have sailed (2021), Amenoum
Looks grazing distance
because there's nothing close to sea
all our ships have sailed
beyond the point of no avail

our horizons may be wide now
but devoid of events 
we are particles of dust
and all our remains are waves unalive

was anyone ever here
blinded will one day wonder
but may choose blindness
to remain the only wonder

was anyone ever here
blinded will one day wonder
but may choose blindness
to remain the only wonder
Letter from a messenger (2023), Amenoum
They called me Messiah
but my name was Jesus
They claim I'm here to save the world
but I just came to understand it
They called my son Muhammad
claimed he was the messenger of God
but he just came to save the trees
now to write messages in blood

Now they call me Moses
but the name means nothing
claim I am the prophet
but I just keep my eyes wide open

Now I'm here again
and again they need a savior, a spectacle
and miracles to save them from themselves
but I never was here for them
I am here for all of god there is
not here to fight
just to announce the end of human kingdom
and pronounce this place ready 
for the age of freedom, peace and wisdom

So keep your prayers to yourselves
and keep yourself to your blind
I am not your kind
I'm here to answer the call
call of the wild

Sincerely never yours,
Amen., 2023.01.13

inverse references (signals)

Am I Evil (1980), B. Tatler et al Moja voda (1994), D. Urban et al Lokalna birtija, pijanci et al Top lista nadrealista, B. Đurić et al